ISO-10303-21;
HEADER;
/* Generated by software containing ST-Developer
 * from STEP Tools, Inc. (www.steptools.com) 
 */

FILE_DESCRIPTION(
/* description */ (''),
/* implementation_level */ '2;1');

FILE_NAME(
/* name */ 
'C:/Users/fardi/Dropbox/Anyload/Load Cell Models/3D Drawing/247/247ASL
H/247ASLH-(25-100)kg v1.step',
/* time_stamp */ '2020-01-21T14:34:29-08:00',
/* author */ (''),
/* organization */ (''),
/* preprocessor_version */ 'ST-DEVELOPER v18',
/* originating_system */ 'Autodesk Translation Framework v8.12.0.6',
/* authorisation */ '');

FILE_SCHEMA (('AUTOMOTIVE_DESIGN { 1 0 10303 214 3 1 1 }'));
ENDSEC;

DATA;
#10=MECHANICAL_DESIGN_GEOMETRIC_PRESENTATION_REPRESENTATION('',(#13),#426);
#11=SHAPE_REPRESENTATION_RELATIONSHIP('SRR','None',#433,#12);
#12=ADVANCED_BREP_SHAPE_REPRESENTATION('',(#14),#425);
#13=STYLED_ITEM('',(#442),#14);
#14=MANIFOLD_SOLID_BREP('Body1',#209);
#15=PLANE('',#251);
#16=PLANE('',#252);
#17=PLANE('',#253);
#18=PLANE('',#254);
#19=FACE_BOUND('',#47,.T.);
#20=FACE_BOUND('',#49,.T.);
#21=FACE_BOUND('',#52,.T.);
#22=SPHERICAL_SURFACE('',#234,19.1);
#23=B_SPLINE_CURVE_WITH_KNOTS('',3,(#341,#342,#343,#344,#345,#346,#347,
#348,#349,#350,#351,#352,#353,#354,#355,#356,#357,#358,#359,#360,#361,#362,
#363,#364,#365,#366,#367,#368,#369,#370,#371,#372,#373,#374),
 .UNSPECIFIED.,.T.,.F.,(4,2,2,2,2,2,2,2,2,2,2,2,2,2,2,2,4),(-0.562346840281295,
-0.526927024583103,-0.491507208884911,-0.456633239949331,-0.421759271013751,
-0.386885302078171,-0.352011333142591,-0.316591517444399,-0.281171701746207,
-0.245941194865106,-0.210710687984005,-0.175648269428554,-0.140585850873104,
-0.105523432317653,-0.0704610137622018,-0.0352305068811009,0.),
 .UNSPECIFIED.);
#24=CONICAL_SURFACE('',#228,0.749999999999998,0.266306244693826);
#25=CONICAL_SURFACE('',#240,6.35,0.785398163397446);
#26=CONICAL_SURFACE('',#245,6.15,0.785398163397448);
#27=FACE_OUTER_BOUND('',#39,.T.);
#28=FACE_OUTER_BOUND('',#40,.T.);
#29=FACE_OUTER_BOUND('',#41,.T.);
#30=FACE_OUTER_BOUND('',#42,.T.);
#31=FACE_OUTER_BOUND('',#43,.T.);
#32=FACE_OUTER_BOUND('',#44,.T.);
#33=FACE_OUTER_BOUND('',#45,.T.);
#34=FACE_OUTER_BOUND('',#46,.T.);
#35=FACE_OUTER_BOUND('',#48,.T.);
#36=FACE_OUTER_BOUND('',#50,.T.);
#37=FACE_OUTER_BOUND('',#51,.T.);
#38=FACE_OUTER_BOUND('',#53,.T.);
#39=EDGE_LOOP('',(#137,#138,#139,#140,#141,#142));
#40=EDGE_LOOP('',(#143,#144,#145,#146,#147));
#41=EDGE_LOOP('',(#148,#149,#150,#151,#152,#153));
#42=EDGE_LOOP('',(#154,#155));
#43=EDGE_LOOP('',(#156,#157,#158,#159,#160,#161));
#44=EDGE_LOOP('',(#162,#163,#164,#165,#166,#167));
#45=EDGE_LOOP('',(#168,#169,#170,#171,#172,#173));
#46=EDGE_LOOP('',(#174,#175,#176,#177,#178,#179));
#47=EDGE_LOOP('',(#180));
#48=EDGE_LOOP('',(#181,#182));
#49=EDGE_LOOP('',(#183,#184));
#50=EDGE_LOOP('',(#185,#186));
#51=EDGE_LOOP('',(#187,#188));
#52=EDGE_LOOP('',(#189,#190));
#53=EDGE_LOOP('',(#191,#192));
#54=LINE('',#335,#61);
#55=LINE('',#375,#62);
#56=LINE('',#382,#63);
#57=LINE('',#396,#64);
#58=LINE('',#403,#65);
#59=LINE('',#412,#66);
#60=LINE('',#418,#67);
#61=VECTOR('',#263,0.749999999999998);
#62=VECTOR('',#270,0.749999999999998);
#63=VECTOR('',#277,5.5);
#64=VECTOR('',#294,1.5);
#65=VECTOR('',#301,6.35);
#66=VECTOR('',#310,6.15);
#67=VECTOR('',#319,6.35);
#68=CIRCLE('',#224,0.749999999999998);
#69=CIRCLE('',#225,0.749999999999998);
#70=CIRCLE('',#226,0.749999999999998);
#71=CIRCLE('',#227,0.749999999999998);
#72=CIRCLE('',#230,5.5);
#73=CIRCLE('',#231,5.5);
#74=CIRCLE('',#232,5.5);
#75=CIRCLE('',#233,5.5);
#76=CIRCLE('',#235,1.5);
#77=CIRCLE('',#236,1.5);
#78=CIRCLE('',#238,1.5);
#79=CIRCLE('',#239,1.5);
#80=CIRCLE('',#241,6.35);
#81=CIRCLE('',#242,6.35);
#82=CIRCLE('',#243,6.15);
#83=CIRCLE('',#244,6.15);
#84=CIRCLE('',#246,6.35);
#85=CIRCLE('',#247,6.15);
#86=CIRCLE('',#248,6.15);
#87=CIRCLE('',#249,6.35);
#88=VERTEX_POINT('',#330);
#89=VERTEX_POINT('',#331);
#90=VERTEX_POINT('',#334);
#91=VERTEX_POINT('',#336);
#92=VERTEX_POINT('',#340);
#93=VERTEX_POINT('',#377);
#94=VERTEX_POINT('',#378);
#95=VERTEX_POINT('',#381);
#96=VERTEX_POINT('',#383);
#97=VERTEX_POINT('',#387);
#98=VERTEX_POINT('',#388);
#99=VERTEX_POINT('',#392);
#100=VERTEX_POINT('',#393);
#101=VERTEX_POINT('',#398);
#102=VERTEX_POINT('',#399);
#103=VERTEX_POINT('',#402);
#104=VERTEX_POINT('',#404);
#105=VERTEX_POINT('',#408);
#106=VERTEX_POINT('',#409);
#107=VERTEX_POINT('',#411);
#108=VERTEX_POINT('',#413);
#109=EDGE_CURVE('',#88,#89,#68,.T.);
#110=EDGE_CURVE('',#89,#88,#69,.T.);
#111=EDGE_CURVE('',#89,#90,#54,.T.);
#112=EDGE_CURVE('',#90,#91,#70,.T.);
#113=EDGE_CURVE('',#91,#90,#71,.T.);
#114=EDGE_CURVE('',#92,#92,#23,.T.);
#115=EDGE_CURVE('',#92,#89,#55,.T.);
#116=EDGE_CURVE('',#93,#94,#72,.T.);
#117=EDGE_CURVE('',#94,#93,#73,.T.);
#118=EDGE_CURVE('',#94,#95,#56,.T.);
#119=EDGE_CURVE('',#95,#96,#74,.T.);
#120=EDGE_CURVE('',#96,#95,#75,.T.);
#121=EDGE_CURVE('',#97,#98,#76,.T.);
#122=EDGE_CURVE('',#98,#97,#77,.T.);
#123=EDGE_CURVE('',#99,#100,#78,.T.);
#124=EDGE_CURVE('',#100,#99,#79,.T.);
#125=EDGE_CURVE('',#100,#98,#57,.T.);
#126=EDGE_CURVE('',#101,#102,#80,.T.);
#127=EDGE_CURVE('',#102,#101,#81,.T.);
#128=EDGE_CURVE('',#102,#103,#58,.T.);
#129=EDGE_CURVE('',#103,#104,#82,.T.);
#130=EDGE_CURVE('',#104,#103,#83,.T.);
#131=EDGE_CURVE('',#105,#106,#84,.T.);
#132=EDGE_CURVE('',#106,#107,#59,.T.);
#133=EDGE_CURVE('',#108,#107,#85,.T.);
#134=EDGE_CURVE('',#107,#108,#86,.T.);
#135=EDGE_CURVE('',#106,#105,#87,.T.);
#136=EDGE_CURVE('',#105,#102,#60,.T.);
#137=ORIENTED_EDGE('',*,*,#109,.F.);
#138=ORIENTED_EDGE('',*,*,#110,.F.);
#139=ORIENTED_EDGE('',*,*,#111,.T.);
#140=ORIENTED_EDGE('',*,*,#112,.T.);
#141=ORIENTED_EDGE('',*,*,#113,.T.);
#142=ORIENTED_EDGE('',*,*,#111,.F.);
#143=ORIENTED_EDGE('',*,*,#114,.F.);
#144=ORIENTED_EDGE('',*,*,#115,.T.);
#145=ORIENTED_EDGE('',*,*,#110,.T.);
#146=ORIENTED_EDGE('',*,*,#109,.T.);
#147=ORIENTED_EDGE('',*,*,#115,.F.);
#148=ORIENTED_EDGE('',*,*,#116,.F.);
#149=ORIENTED_EDGE('',*,*,#117,.F.);
#150=ORIENTED_EDGE('',*,*,#118,.T.);
#151=ORIENTED_EDGE('',*,*,#119,.T.);
#152=ORIENTED_EDGE('',*,*,#120,.T.);
#153=ORIENTED_EDGE('',*,*,#118,.F.);
#154=ORIENTED_EDGE('',*,*,#121,.F.);
#155=ORIENTED_EDGE('',*,*,#122,.F.);
#156=ORIENTED_EDGE('',*,*,#123,.F.);
#157=ORIENTED_EDGE('',*,*,#124,.F.);
#158=ORIENTED_EDGE('',*,*,#125,.T.);
#159=ORIENTED_EDGE('',*,*,#122,.T.);
#160=ORIENTED_EDGE('',*,*,#121,.T.);
#161=ORIENTED_EDGE('',*,*,#125,.F.);
#162=ORIENTED_EDGE('',*,*,#126,.F.);
#163=ORIENTED_EDGE('',*,*,#127,.F.);
#164=ORIENTED_EDGE('',*,*,#128,.T.);
#165=ORIENTED_EDGE('',*,*,#129,.T.);
#166=ORIENTED_EDGE('',*,*,#130,.T.);
#167=ORIENTED_EDGE('',*,*,#128,.F.);
#168=ORIENTED_EDGE('',*,*,#131,.T.);
#169=ORIENTED_EDGE('',*,*,#132,.T.);
#170=ORIENTED_EDGE('',*,*,#133,.F.);
#171=ORIENTED_EDGE('',*,*,#134,.F.);
#172=ORIENTED_EDGE('',*,*,#132,.F.);
#173=ORIENTED_EDGE('',*,*,#135,.T.);
#174=ORIENTED_EDGE('',*,*,#131,.F.);
#175=ORIENTED_EDGE('',*,*,#136,.T.);
#176=ORIENTED_EDGE('',*,*,#127,.T.);
#177=ORIENTED_EDGE('',*,*,#126,.T.);
#178=ORIENTED_EDGE('',*,*,#136,.F.);
#179=ORIENTED_EDGE('',*,*,#135,.F.);
#180=ORIENTED_EDGE('',*,*,#114,.T.);
#181=ORIENTED_EDGE('',*,*,#130,.F.);
#182=ORIENTED_EDGE('',*,*,#129,.F.);
#183=ORIENTED_EDGE('',*,*,#123,.T.);
#184=ORIENTED_EDGE('',*,*,#124,.T.);
#185=ORIENTED_EDGE('',*,*,#116,.T.);
#186=ORIENTED_EDGE('',*,*,#117,.T.);
#187=ORIENTED_EDGE('',*,*,#133,.T.);
#188=ORIENTED_EDGE('',*,*,#134,.T.);
#189=ORIENTED_EDGE('',*,*,#120,.F.);
#190=ORIENTED_EDGE('',*,*,#119,.F.);
#191=ORIENTED_EDGE('',*,*,#113,.F.);
#192=ORIENTED_EDGE('',*,*,#112,.F.);
#193=CYLINDRICAL_SURFACE('',#223,0.749999999999998);
#194=CYLINDRICAL_SURFACE('',#229,5.5);
#195=CYLINDRICAL_SURFACE('',#237,1.5);
#196=CYLINDRICAL_SURFACE('',#250,6.35);
#197=ADVANCED_FACE('',(#27),#193,.T.);
#198=ADVANCED_FACE('',(#28),#24,.T.);
#199=ADVANCED_FACE('',(#29),#194,.F.);
#200=ADVANCED_FACE('',(#30),#22,.T.);
#201=ADVANCED_FACE('',(#31),#195,.T.);
#202=ADVANCED_FACE('',(#32),#25,.T.);
#203=ADVANCED_FACE('',(#33),#26,.T.);
#204=ADVANCED_FACE('',(#34,#19),#196,.T.);
#205=ADVANCED_FACE('',(#35,#20),#15,.T.);
#206=ADVANCED_FACE('',(#36),#16,.T.);
#207=ADVANCED_FACE('',(#37,#21),#17,.T.);
#208=ADVANCED_FACE('',(#38),#18,.F.);
#209=CLOSED_SHELL('',(#197,#198,#199,#200,#201,#202,#203,#204,#205,#206,
#207,#208));
#210=DERIVED_UNIT_ELEMENT(#212,1.);
#211=DERIVED_UNIT_ELEMENT(#428,3.);
#212=(
MASS_UNIT()
NAMED_UNIT(*)
SI_UNIT(.KILO.,.GRAM.)
);
#213=DERIVED_UNIT((#210,#211));
#214=MEASURE_REPRESENTATION_ITEM('density measure',
POSITIVE_RATIO_MEASURE(7850.),#213);
#215=PROPERTY_DEFINITION_REPRESENTATION(#220,#217);
#216=PROPERTY_DEFINITION_REPRESENTATION(#221,#218);
#217=REPRESENTATION('material name',(#219),#425);
#218=REPRESENTATION('density',(#214),#425);
#219=DESCRIPTIVE_REPRESENTATION_ITEM('Steel','Steel');
#220=PROPERTY_DEFINITION('material property','material name',#435);
#221=PROPERTY_DEFINITION('material property','density of part',#435);
#222=AXIS2_PLACEMENT_3D('placement',#328,#255,#256);
#223=AXIS2_PLACEMENT_3D('',#329,#257,#258);
#224=AXIS2_PLACEMENT_3D('',#332,#259,#260);
#225=AXIS2_PLACEMENT_3D('',#333,#261,#262);
#226=AXIS2_PLACEMENT_3D('',#337,#264,#265);
#227=AXIS2_PLACEMENT_3D('',#338,#266,#267);
#228=AXIS2_PLACEMENT_3D('',#339,#268,#269);
#229=AXIS2_PLACEMENT_3D('',#376,#271,#272);
#230=AXIS2_PLACEMENT_3D('',#379,#273,#274);
#231=AXIS2_PLACEMENT_3D('',#380,#275,#276);
#232=AXIS2_PLACEMENT_3D('',#384,#278,#279);
#233=AXIS2_PLACEMENT_3D('',#385,#280,#281);
#234=AXIS2_PLACEMENT_3D('',#386,#282,#283);
#235=AXIS2_PLACEMENT_3D('',#389,#284,#285);
#236=AXIS2_PLACEMENT_3D('',#390,#286,#287);
#237=AXIS2_PLACEMENT_3D('',#391,#288,#289);
#238=AXIS2_PLACEMENT_3D('',#394,#290,#291);
#239=AXIS2_PLACEMENT_3D('',#395,#292,#293);
#240=AXIS2_PLACEMENT_3D('',#397,#295,#296);
#241=AXIS2_PLACEMENT_3D('',#400,#297,#298);
#242=AXIS2_PLACEMENT_3D('',#401,#299,#300);
#243=AXIS2_PLACEMENT_3D('',#405,#302,#303);
#244=AXIS2_PLACEMENT_3D('',#406,#304,#305);
#245=AXIS2_PLACEMENT_3D('',#407,#306,#307);
#246=AXIS2_PLACEMENT_3D('',#410,#308,#309);
#247=AXIS2_PLACEMENT_3D('',#414,#311,#312);
#248=AXIS2_PLACEMENT_3D('',#415,#313,#314);
#249=AXIS2_PLACEMENT_3D('',#416,#315,#316);
#250=AXIS2_PLACEMENT_3D('',#417,#317,#318);
#251=AXIS2_PLACEMENT_3D('',#419,#320,#321);
#252=AXIS2_PLACEMENT_3D('',#420,#322,#323);
#253=AXIS2_PLACEMENT_3D('',#421,#324,#325);
#254=AXIS2_PLACEMENT_3D('',#422,#326,#327);
#255=DIRECTION('axis',(0.,0.,1.));
#256=DIRECTION('refdir',(1.,0.,0.));
#257=DIRECTION('center_axis',(-1.,0.,0.));
#258=DIRECTION('ref_axis',(0.,0.,1.));
#259=DIRECTION('center_axis',(-1.,0.,0.));
#260=DIRECTION('ref_axis',(0.,0.,1.));
#261=DIRECTION('center_axis',(-1.,0.,0.));
#262=DIRECTION('ref_axis',(0.,0.,1.));
#263=DIRECTION('',(1.,0.,0.));
#264=DIRECTION('center_axis',(-1.,0.,0.));
#265=DIRECTION('ref_axis',(0.,0.,1.));
#266=DIRECTION('center_axis',(-1.,0.,0.));
#267=DIRECTION('ref_axis',(0.,0.,1.));
#268=DIRECTION('center_axis',(-1.,0.,0.));
#269=DIRECTION('ref_axis',(0.,0.,1.));
#270=DIRECTION('',(0.964749560030254,3.22289920088944E-17,0.263169691304738));
#271=DIRECTION('center_axis',(0.,-1.,0.));
#272=DIRECTION('ref_axis',(0.,0.,-1.));
#273=DIRECTION('center_axis',(0.,-1.,0.));
#274=DIRECTION('ref_axis',(0.,0.,-1.));
#275=DIRECTION('center_axis',(0.,-1.,0.));
#276=DIRECTION('ref_axis',(0.,0.,-1.));
#277=DIRECTION('',(0.,-1.,0.));
#278=DIRECTION('center_axis',(0.,-1.,0.));
#279=DIRECTION('ref_axis',(0.,0.,-1.));
#280=DIRECTION('center_axis',(0.,-1.,0.));
#281=DIRECTION('ref_axis',(0.,0.,-1.));
#282=DIRECTION('center_axis',(6.12323399573677E-17,0.,1.));
#283=DIRECTION('ref_axis',(1.,0.,0.));
#284=DIRECTION('center_axis',(0.,-1.,0.));
#285=DIRECTION('ref_axis',(0.,0.,-1.));
#286=DIRECTION('center_axis',(0.,-1.,0.));
#287=DIRECTION('ref_axis',(0.,0.,-1.));
#288=DIRECTION('center_axis',(0.,-1.,0.));
#289=DIRECTION('ref_axis',(0.,0.,-1.));
#290=DIRECTION('center_axis',(0.,-1.,0.));
#291=DIRECTION('ref_axis',(0.,0.,-1.));
#292=DIRECTION('center_axis',(0.,-1.,0.));
#293=DIRECTION('ref_axis',(0.,0.,-1.));
#294=DIRECTION('',(0.,1.,0.));
#295=DIRECTION('center_axis',(0.,-1.,0.));
#296=DIRECTION('ref_axis',(0.,0.,-1.));
#297=DIRECTION('center_axis',(0.,-1.,0.));
#298=DIRECTION('ref_axis',(0.,0.,-1.));
#299=DIRECTION('center_axis',(0.,-1.,0.));
#300=DIRECTION('ref_axis',(0.,0.,-1.));
#301=DIRECTION('',(8.65956056235492E-17,0.707106781186549,-0.707106781186546));
#302=DIRECTION('center_axis',(0.,-1.,0.));
#303=DIRECTION('ref_axis',(0.,0.,-1.));
#304=DIRECTION('center_axis',(0.,-1.,0.));
#305=DIRECTION('ref_axis',(0.,0.,-1.));
#306=DIRECTION('center_axis',(0.,1.,0.));
#307=DIRECTION('ref_axis',(0.,0.,1.));
#308=DIRECTION('center_axis',(0.,-1.,0.));
#309=DIRECTION('ref_axis',(0.,0.,-1.));
#310=DIRECTION('',(8.65956056235493E-17,-0.707106781186548,0.707106781186548));
#311=DIRECTION('center_axis',(0.,-1.,0.));
#312=DIRECTION('ref_axis',(0.,0.,-1.));
#313=DIRECTION('center_axis',(0.,-1.,0.));
#314=DIRECTION('ref_axis',(0.,0.,-1.));
#315=DIRECTION('center_axis',(0.,-1.,0.));
#316=DIRECTION('ref_axis',(0.,0.,-1.));
#317=DIRECTION('center_axis',(0.,-1.,0.));
#318=DIRECTION('ref_axis',(0.,0.,-1.));
#319=DIRECTION('',(0.,1.,0.));
#320=DIRECTION('center_axis',(0.,1.,0.));
#321=DIRECTION('ref_axis',(0.,0.,1.));
#322=DIRECTION('center_axis',(0.,-1.,0.));
#323=DIRECTION('ref_axis',(0.,0.,-1.));
#324=DIRECTION('center_axis',(0.,-1.,0.));
#325=DIRECTION('ref_axis',(0.,0.,-1.));
#326=DIRECTION('center_axis',(-1.,0.,0.));
#327=DIRECTION('ref_axis',(0.,0.,1.));
#328=CARTESIAN_POINT('',(0.,0.,0.));
#329=CARTESIAN_POINT('Origin',(6.35,2.,0.));
#330=CARTESIAN_POINT('',(6.98041889235768,2.,0.749999999999998));
#331=CARTESIAN_POINT('',(6.98041889235768,2.,-0.749999999999998));
#332=CARTESIAN_POINT('Origin',(6.98041889235768,2.,0.));
#333=CARTESIAN_POINT('Origin',(6.98041889235768,2.,0.));
#334=CARTESIAN_POINT('',(10.7551805193565,2.,-0.749999999999998));
#335=CARTESIAN_POINT('',(6.35,2.,-0.749999999999998));
#336=CARTESIAN_POINT('',(10.7551805193565,2.,0.749999999999998));
#337=CARTESIAN_POINT('Origin',(10.7551805193565,2.,0.));
#338=CARTESIAN_POINT('Origin',(10.7551805193565,2.,0.));
#339=CARTESIAN_POINT('Origin',(6.98041889235768,2.,0.));
#340=CARTESIAN_POINT('',(6.2798753430131,2.,-0.941098122522858));
#341=CARTESIAN_POINT('Ctrl Pts',(6.2798753430131,2.,-0.941098122522858));
#342=CARTESIAN_POINT('Ctrl Pts',(6.2798753430131,1.88193394767269,-0.941098122522858));
#343=CARTESIAN_POINT('Ctrl Pts',(6.28370843420462,1.75647691193752,-0.916513136934618));
#344=CARTESIAN_POINT('Ctrl Pts',(6.29733068395967,1.52701681964622,-0.817688324032502));
#345=CARTESIAN_POINT('Ctrl Pts',(6.30690391227461,1.42298918711892,-0.743475916393717));
#346=CARTESIAN_POINT('Ctrl Pts',(6.32448074831883,1.26119713075721,-0.574903121761772));
#347=CARTESIAN_POINT('Ctrl Pts',(6.33364180182371,1.19201103179584,-0.469755373250961));
#348=CARTESIAN_POINT('Ctrl Pts',(6.34648573512147,1.10042820782366,-0.240431677324143));
#349=CARTESIAN_POINT('Ctrl Pts',(6.35,1.07803086710997,-0.1162465631186));
#350=CARTESIAN_POINT('Ctrl Pts',(6.35,1.07803086710997,0.1162465631186));
#351=CARTESIAN_POINT('Ctrl Pts',(6.34648573512147,1.10042820782366,0.240431677324143));
#352=CARTESIAN_POINT('Ctrl Pts',(6.33364180182371,1.19201103179585,0.469755373250961));
#353=CARTESIAN_POINT('Ctrl Pts',(6.32448074831883,1.26119713075721,0.574903121761772));
#354=CARTESIAN_POINT('Ctrl Pts',(6.30690391227461,1.42298918711892,0.743475916393717));
#355=CARTESIAN_POINT('Ctrl Pts',(6.29733068395967,1.52701681964622,0.817688324032502));
#356=CARTESIAN_POINT('Ctrl Pts',(6.28370843420462,1.75647691193752,0.916513136934618));
#357=CARTESIAN_POINT('Ctrl Pts',(6.2798753430131,1.88193394767269,0.941098122522858));
#358=CARTESIAN_POINT('Ctrl Pts',(6.2798753430131,2.117435022937,0.941098122522858));
#359=CARTESIAN_POINT('Ctrl Pts',(6.28366675214793,2.24226970975122,0.916772676748377));
#360=CARTESIAN_POINT('Ctrl Pts',(6.29716839964572,2.47079260216963,0.818907847828017));
#361=CARTESIAN_POINT('Ctrl Pts',(6.30666675691263,2.57450500453749,0.745395852742518));
#362=CARTESIAN_POINT('Ctrl Pts',(6.32424797057287,2.73697134423198,0.577477274200741));
#363=CARTESIAN_POINT('Ctrl Pts',(6.33348483136229,2.80683237287214,0.471986251019174));
#364=CARTESIAN_POINT('Ctrl Pts',(6.34644681720981,2.89933105875041,0.241689717148178));
#365=CARTESIAN_POINT('Ctrl Pts',(6.35,2.92196913289003,0.116874728518169));
#366=CARTESIAN_POINT('Ctrl Pts',(6.35,2.92196913289003,-0.11687472851817));
#367=CARTESIAN_POINT('Ctrl Pts',(6.34644681720981,2.89933105875041,-0.241689717148179));
#368=CARTESIAN_POINT('Ctrl Pts',(6.33348483136229,2.80683237287214,-0.471986251019175));
#369=CARTESIAN_POINT('Ctrl Pts',(6.32424797057287,2.73697134423198,-0.577477274200741));
#370=CARTESIAN_POINT('Ctrl Pts',(6.30666675691263,2.57450500453749,-0.745395852742518));
#371=CARTESIAN_POINT('Ctrl Pts',(6.29716839964572,2.47079260216963,-0.818907847828017));
#372=CARTESIAN_POINT('Ctrl Pts',(6.28366675214793,2.24226970975122,-0.916772676748377));
#373=CARTESIAN_POINT('Ctrl Pts',(6.2798753430131,2.117435022937,-0.941098122522858));
#374=CARTESIAN_POINT('Ctrl Pts',(6.2798753430131,2.,-0.941098122522858));
#375=CARTESIAN_POINT('',(6.98041889235768,2.,-0.749999999999998));
#376=CARTESIAN_POINT('Origin',(0.,-5.42878984406104,0.));
#377=CARTESIAN_POINT('',(0.,0.149999999999998,-5.5));
#378=CARTESIAN_POINT('',(-6.73555739531044E-16,0.149999999999998,5.5));
#379=CARTESIAN_POINT('Origin',(0.,0.149999999999998,0.));
#380=CARTESIAN_POINT('Origin',(0.,0.149999999999998,0.));
#381=CARTESIAN_POINT('',(-6.73555739531044E-16,-2.22044604925031E-15,5.5));
#382=CARTESIAN_POINT('',(-6.73555739531044E-16,-5.42878984406104,5.5));
#383=CARTESIAN_POINT('',(0.,-1.73472347597681E-15,-5.5));
#384=CARTESIAN_POINT('Origin',(0.,-1.73472347597681E-15,0.));
#385=CARTESIAN_POINT('Origin',(0.,-1.73472347597681E-15,0.));
#386=CARTESIAN_POINT('Origin',(0.,-14.6,0.));
#387=CARTESIAN_POINT('',(0.,4.44100837665905,-1.5));
#388=CARTESIAN_POINT('',(-1.83697019872103E-16,4.44100837665905,1.5));
#389=CARTESIAN_POINT('Origin',(0.,4.44100837665905,0.));
#390=CARTESIAN_POINT('Origin',(0.,4.44100837665905,0.));
#391=CARTESIAN_POINT('Origin',(0.,-5.42878984406104,0.));
#392=CARTESIAN_POINT('',(0.,4.,-1.5));
#393=CARTESIAN_POINT('',(-1.83697019872103E-16,4.,1.5));
#394=CARTESIAN_POINT('Origin',(0.,4.,0.));
#395=CARTESIAN_POINT('Origin',(0.,4.,0.));
#396=CARTESIAN_POINT('',(-1.83697019872103E-16,-5.42878984406104,1.5));
#397=CARTESIAN_POINT('Origin',(0.,3.8,0.));
#398=CARTESIAN_POINT('',(0.,3.8,-6.35));
#399=CARTESIAN_POINT('',(-7.77650717458569E-16,3.8,6.35));
#400=CARTESIAN_POINT('Origin',(0.,3.8,0.));
#401=CARTESIAN_POINT('Origin',(0.,3.8,0.));
#402=CARTESIAN_POINT('',(-7.53157781475622E-16,4.,6.15));
#403=CARTESIAN_POINT('',(-7.77650717458569E-16,3.8,6.35));
#404=CARTESIAN_POINT('',(0.,4.,-6.15));
#405=CARTESIAN_POINT('Origin',(0.,4.,0.));
#406=CARTESIAN_POINT('Origin',(0.,4.,0.));
#407=CARTESIAN_POINT('Origin',(0.,-1.73472347597681E-15,0.));
#408=CARTESIAN_POINT('',(7.77650717458569E-16,0.199999999999998,6.35));
#409=CARTESIAN_POINT('',(-7.77650717458569E-16,0.199999999999998,-6.35));
#410=CARTESIAN_POINT('Origin',(0.,0.199999999999998,0.));
#411=CARTESIAN_POINT('',(-7.53157781475622E-16,-1.97133497130459E-15,-6.15));
#412=CARTESIAN_POINT('',(-7.53157781475622E-16,-1.73472347597681E-15,-6.15));
#413=CARTESIAN_POINT('',(0.,-1.73472347597681E-15,6.15));
#414=CARTESIAN_POINT('Origin',(0.,-1.73472347597681E-15,0.));
#415=CARTESIAN_POINT('Origin',(0.,-1.73472347597681E-15,0.));
#416=CARTESIAN_POINT('Origin',(0.,0.199999999999998,0.));
#417=CARTESIAN_POINT('Origin',(0.,-5.42878984406104,0.));
#418=CARTESIAN_POINT('',(-7.77650717458569E-16,-5.42878984406104,6.35));
#419=CARTESIAN_POINT('Origin',(1.5,4.,0.));
#420=CARTESIAN_POINT('Origin',(0.,0.149999999999998,0.));
#421=CARTESIAN_POINT('Origin',(5.5,-1.77989250729552E-15,0.));
#422=CARTESIAN_POINT('Origin',(10.7551805193565,2.75,0.));
#423=UNCERTAINTY_MEASURE_WITH_UNIT(LENGTH_MEASURE(0.01),#427,
'DISTANCE_ACCURACY_VALUE',
'Maximum model space distance between geometric entities at asserted c
onnectivities');
#424=UNCERTAINTY_MEASURE_WITH_UNIT(LENGTH_MEASURE(0.01),#427,
'DISTANCE_ACCURACY_VALUE',
'Maximum model space distance between geometric entities at asserted c
onnectivities');
#425=(
GEOMETRIC_REPRESENTATION_CONTEXT(3)
GLOBAL_UNCERTAINTY_ASSIGNED_CONTEXT((#423))
GLOBAL_UNIT_ASSIGNED_CONTEXT((#427,#429,#430))
REPRESENTATION_CONTEXT('','3D')
);
#426=(
GEOMETRIC_REPRESENTATION_CONTEXT(3)
GLOBAL_UNCERTAINTY_ASSIGNED_CONTEXT((#424))
GLOBAL_UNIT_ASSIGNED_CONTEXT((#427,#429,#430))
REPRESENTATION_CONTEXT('','3D')
);
#427=(
LENGTH_UNIT()
NAMED_UNIT(*)
SI_UNIT(.MILLI.,.METRE.)
);
#428=(
LENGTH_UNIT()
NAMED_UNIT(*)
SI_UNIT($,.METRE.)
);
#429=(
NAMED_UNIT(*)
PLANE_ANGLE_UNIT()
SI_UNIT($,.RADIAN.)
);
#430=(
NAMED_UNIT(*)
SI_UNIT($,.STERADIAN.)
SOLID_ANGLE_UNIT()
);
#431=SHAPE_DEFINITION_REPRESENTATION(#432,#433);
#432=PRODUCT_DEFINITION_SHAPE('',$,#435);
#433=SHAPE_REPRESENTATION('',(#222),#425);
#434=PRODUCT_DEFINITION_CONTEXT('part definition',#439,'design');
#435=PRODUCT_DEFINITION('247ASLH-(25-100)kg','247ASLH-(25-100)kg v1',#436,
#434);
#436=PRODUCT_DEFINITION_FORMATION('',$,#441);
#437=PRODUCT_RELATED_PRODUCT_CATEGORY('247ASLH-(25-100)kg v1',
'247ASLH-(25-100)kg v1',(#441));
#438=APPLICATION_PROTOCOL_DEFINITION('international standard',
'automotive_design',2009,#439);
#439=APPLICATION_CONTEXT(
'Core Data for Automotive Mechanical Design Process');
#440=PRODUCT_CONTEXT('part definition',#439,'mechanical');
#441=PRODUCT('247ASLH-(25-100)kg','247ASLH-(25-100)kg v1',$,(#440));
#442=PRESENTATION_STYLE_ASSIGNMENT((#443));
#443=SURFACE_STYLE_USAGE(.BOTH.,#444);
#444=SURFACE_SIDE_STYLE('',(#445));
#445=SURFACE_STYLE_FILL_AREA(#446);
#446=FILL_AREA_STYLE('Steel - Satin',(#447));
#447=FILL_AREA_STYLE_COLOUR('Steel - Satin',#448);
#448=COLOUR_RGB('Steel - Satin',0.627450980392157,0.627450980392157,0.627450980392157);
ENDSEC;
END-ISO-10303-21;
